Half Price Membership Today!
Today () you can get immediate access to our Members Area downloads for a small donation of just $14.95 (half normal price of $29.95).


Donate
in various currencies...

A-Z (artist name) of Guitar Tab
A    B    C    D    E    F
G    H    I    J    K    L
M    N    O    P    Q    R
S    T    U    V    W    X
Y    Z    0-9

A-Z (artist name) of Guitar Tab
A   B   C   D   E   F   G   H   I   J   K   L   M   N   O   P   Q   R   S   T   U   V   W   X   Y   Z   0-9

Click HERE for an easy print version of afghan whigs - fountain and fairfax guitar tab


################################################################
# The following is the author's own interpretation of the song #
# to be used for studying or private use only. Downloaded from #
# www.TabGuitarLessons.com. FREE GUITAR SOFTWARE + LOTS MORE!  #
# Home of the 60 minute fretboard memory technique. You'll     #
# memorise ALL the notes and positions on the fretboard in 60  #
# minutes or less. visit www.TabGuitarLessons.com today.       #
################################################################
                           "Fountain and Fairfax" Tab
 Fountain and Fairfax
 --------------------------------------------------------------------------------
 The intro to "Fountain & Fairfax"
 First, you play the B & E strings open, alternating strings
 Then, it's: On the B string: 12 -10 - 8 - 10 - 8--10 - 7 - 8 - 7 -5 -7 -5
 repeat line several times .
 --------------------------------------------------------------------------------
 Thanks to Debbie (GrnGoddess@aol.com) for sending this out to the whigs list.
 --------------------------------------------------------------------------------
 for the verses of "fountain and fairfax" it goes some thing like this:
 E  F# G ...C  D  E (7th fret)
 --------------------------------------------------------------------------------
 Thanks to Thomas Kenniston (kenn+@pitt.edu) for sending this out to the whigs
 list.
 --------------------------------------------------------------------------------
 
    one guitar plays :
 
 e-----0-0-------0-0------0-----------------
 b--0---------0---------0-------------------
 g------------------------------------------
 d------------------------------------------
 a------------------------------------------
 e------------------------------------------
 
    and the 2nd plays :
 
 e--7-5-3-5-3-5-2-3-2-0-2-0-2-----------------
 b--------------------------------------------
 g--------------------------------------------
 d--------------------------------------------
 a--------------------------------------------
 e--------------------------------------------
 
    at the end of this riff :
 
 e--s7-----s7-------s7--s7---5------5--7------
 b------5------5----------------8-------------
 g--------------------------------------------
 d--------------------------------------------
 a--------------------------------------------
 e--------------------------------------------
 
 --------------------------------------------------------------------------------
 Thanks to Assaf Rinot (assaf_rinot@geocities.com) for sending this to me.
 --------------------------------------------------------------------------------
 

Copyright Guitar Tab & Guitar Lessons at www.TabGuitarLessons.com